ISO-10303-21;
HEADER;
FILE_DESCRIPTION (( 'STEP AP203' ),
    '1' );
FILE_NAME ('Q-QZWP-R4-10-852-M.STEP',
    '2020-12-23T01:22:36',
    ( '' ),
    ( '' ),
    'SwSTEP 2.0',
    'SolidWorks 2020',
    '' );
FILE_SCHEMA (( 'CONFIG_CONTROL_DESIGN' ));
ENDSEC;

DATA;
#1 = DIRECTION ( 'NONE',  ( 1.000000000000000000, 0.000000000000000000, 0.000000000000000000 ) ) ;
#2 = PERSON_AND_ORGANIZATION_ROLE ( 'creator' ) ;
#3 = CARTESIAN_POINT ( 'NONE',  ( 1.250000000000000222, 5.000000000000000000, 0.000000000000000000 ) ) ;
#4 = ORIENTED_EDGE ( 'NONE', *, *, #174, .F. ) ;
#5 = CALENDAR_DATE ( 2020, 23, 12 ) ;
#6 = LOCAL_TIME ( 9, 22, 36.00000000000000000, #232 ) ;
#7 = FACE_OUTER_BOUND ( 'NONE', #185, .T. ) ;
#8 = DIRECTION ( 'NONE',  ( 0.000000000000000000, 0.000000000000000000, 1.000000000000000000 ) ) ;
#9 = ORIENTED_EDGE ( 'NONE', *, *, #78, .T. ) ;
#10 = DIRECTION ( 'NONE',  ( -1.000000000000000000, -0.000000000000000000, -0.000000000000000000 ) ) ;
#11 = DIRECTION ( 'NONE',  ( 0.000000000000000000, 0.000000000000000000, 1.000000000000000000 ) ) ;
#12 = EDGE_LOOP ( 'NONE', ( #31, #210 ) ) ;
#13 = DIRECTION ( 'NONE',  ( 0.000000000000000000, 0.000000000000000000, 1.000000000000000000 ) ) ;
#14 = VECTOR ( 'NONE', #128, 1000.000000000000000 ) ;
#15 = UNCERTAINTY_MEASURE_WITH_UNIT (LENGTH_MEASURE( 1.000000000000000082E-05 ), #229, 'distance_accuracy_value', 'NONE');
#16 = AXIS2_PLACEMENT_3D ( 'NONE', #158, #167, #8 ) ;
#17 = CARTESIAN_POINT ( 'NONE',  ( -3.000000000000000000, 6.123233995736766282E-16, -5.000000000000000000 ) ) ;
#18 = DIRECTION ( 'NONE',  ( 0.000000000000000000, 0.000000000000000000, -1.000000000000000000 ) ) ;
#19 = DATE_TIME_ROLE ( 'creation_date' ) ;
#20 = COORDINATED_UNIVERSAL_TIME_OFFSET ( 8, 0, .AHEAD. ) ;
#21 = DIRECTION ( 'NONE',  ( 0.000000000000000000, 0.000000000000000000, 1.000000000000000000 ) ) ;
#22 = EDGE_LOOP ( 'NONE', ( #192, #196, #25, #141 ) ) ;
#23 = CARTESIAN_POINT ( 'NONE',  ( -3.000000000000000000, 0.000000000000000000, 5.000000000000000000 ) ) ;
#24 = CARTESIAN_POINT ( 'NONE',  ( 3.000000000000000000, 0.000000000000000000, 12.69999999999999929 ) ) ;
#25 = ORIENTED_EDGE ( 'NONE', *, *, #300, .F. ) ;
#26 = ADVANCED_FACE ( 'NONE', ( #137 ), #240, .F. ) ;
#27 =( NAMED_UNIT ( * ) PLANE_ANGLE_UNIT ( ) SI_UNIT ( $, .RADIAN. ) );
#28 = COORDINATED_UNIVERSAL_TIME_OFFSET ( 8, 0, .AHEAD. ) ;
#29 = CC_DESIGN_SECURITY_CLASSIFICATION ( #165, ( #270 ) ) ;
#30 = CARTESIAN_POINT ( 'NONE',  ( -1.614212418857619014, 0.000000000000000000, 5.000000000000000888 ) ) ;
#31 = ORIENTED_EDGE ( 'NONE', *, *, #105, .F. ) ;
#32 = APPROVAL_STATUS ( 'not_yet_approved' ) ;
#33 = DIRECTION ( 'NONE',  ( -1.000000000000000000, -0.000000000000000000, -0.000000000000000000 ) ) ;
#34 = ORIENTED_EDGE ( 'NONE', *, *, #110, .F. ) ;
#35 = EDGE_CURVE ( 'NONE', #149, #81, #37, .T. ) ;
#36 = DIRECTION ( 'NONE',  ( -1.000000000000000000, -0.000000000000000000, -0.000000000000000000 ) ) ;
#37 = CIRCLE ( 'NONE', #311, 12.69999999999999929 ) ;
#38 = ADVANCED_FACE ( 'NONE', ( #257 ), #191, .F. ) ;
#39 = AXIS2_PLACEMENT_3D ( 'NONE', #249, #93, #97 ) ;
#40 = DIRECTION ( 'NONE',  ( -1.000000000000000000, -0.000000000000000000, -0.000000000000000000 ) ) ;
#41 = ADVANCED_FACE ( 'NONE', ( #57 ), #85, .F. ) ;
#42 = EDGE_LOOP ( 'NONE', ( #315, #258 ) ) ;
#43 = DATE_AND_TIME ( #69, #312 ) ;
#44 = DIRECTION ( 'NONE',  ( 1.000000000000000000, 0.000000000000000000, 0.000000000000000000 ) ) ;
#45 = CIRCLE ( 'NONE', #275, 12.69999999999999929 ) ;
#46 = DIRECTION ( 'NONE',  ( 0.000000000000000000, 0.000000000000000000, 1.000000000000000000 ) ) ;
#47 = MANIFOLD_SOLID_BREP ( 'Ðý×', #132 ) ;
#48 = ORIENTED_EDGE ( 'NONE', *, *, #78, .F. ) ;
#49 = DIRECTION ( 'NONE',  ( -1.000000000000000000, -0.000000000000000000, -0.000000000000000000 ) ) ;
#50 = ORIENTED_EDGE ( 'NONE', *, *, #143, .F. ) ;
#51 = DATE_AND_TIME ( #220, #119 ) ;
#52 = FACE_OUTER_BOUND ( 'NONE', #42, .T. ) ;
#53 = FACE_BOUND ( 'NONE', #71, .T. ) ;
#54 = LINE ( 'NONE', #30, #169 ) ;
#55 = ORIENTED_EDGE ( 'NONE', *, *, #204, .F. ) ;
#56 = SECURITY_CLASSIFICATION_LEVEL ( 'unclassified' ) ;
#57 = FACE_OUTER_BOUND ( 'NONE', #99, .T. ) ;
#58 = ORIENTED_EDGE ( 'NONE', *, *, #110, .T. ) ;
#59 = CARTESIAN_POINT ( 'NONE',  ( -1.614212418857619014, 1.555301434917138433E-15, -12.69999999999999929 ) ) ;
#60 = LOCAL_TIME ( 9, 22, 36.00000000000000000, #266 ) ;
#61 = VECTOR ( 'NONE', #261, 1000.000000000000000 ) ;
#62 = CC_DESIGN_PERSON_AND_ORGANIZATION_ASSIGNMENT ( #316, #309, ( #270 ) ) ;
#63 = CC_DESIGN_PERSON_AND_ORGANIZATION_ASSIGNMENT ( #209, #127, ( #165 ) ) ;
#64 = CARTESIAN_POINT ( 'NONE',  ( 1.250000000000000444, 0.000000000000000000, 0.000000000000000000 ) ) ;
#65 = DIRECTION ( 'NONE',  ( 0.000000000000000000, 0.000000000000000000, 1.000000000000000000 ) ) ;
#66 = ORIENTED_EDGE ( 'NONE', *, *, #300, .T. ) ;
#67 = CALENDAR_DATE ( 2020, 23, 12 ) ;
#68 = DIRECTION ( 'NONE',  ( -1.000000000000000000, -0.000000000000000000, -0.000000000000000000 ) ) ;
#69 = CALENDAR_DATE ( 2020, 23, 12 ) ;
#70 = AXIS2_PLACEMENT_3D ( 'NONE', #243, #218, #154 ) ;
#71 = EDGE_LOOP ( 'NONE', ( #129, #50 ) ) ;
#72 = AXIS2_PLACEMENT_3D ( 'NONE', #83, #77, #283 ) ;
#73 = DIRECTION ( 'NONE',  ( -0.000000000000000000, 0.000000000000000000, 1.000000000000000000 ) ) ;
#74 = ORIENTED_EDGE ( 'NONE', *, *, #296, .T. ) ;
#75 = PERSON ( 'UNSPECIFIED', 'UNSPECIFIED', 'UNSPECIFIED', ('UNSPECIFIED'), ('UNSPECIFIED'), ('UNSPECIFIED') ) ;
#76 = PERSON_AND_ORGANIZATION ( #75, #142 ) ;
#77 = DIRECTION ( 'NONE',  ( -1.000000000000000000, -0.000000000000000000, -0.000000000000000000 ) ) ;
#78 = EDGE_CURVE ( 'NONE', #214, #188, #54, .T. ) ;
#79 = CARTESIAN_POINT ( 'NONE',  ( 3.000000000000000000, 6.123233995736768255E-16, -5.000000000000001776 ) ) ;
#80 = LINE ( 'NONE', #269, #61 ) ;
#81 = VERTEX_POINT ( 'NONE', #267 ) ;
#82 = SHAPE_DEFINITION_REPRESENTATION ( #212, #223 ) ;
#83 = CARTESIAN_POINT ( 'NONE',  ( -3.000000000000000000, 0.000000000000000000, 0.000000000000000000 ) ) ;
#84 = EDGE_CURVE ( 'NONE', #155, #140, #115, .T. ) ;
#85 = CYLINDRICAL_SURFACE ( 'NONE', #211, 5.000000000000000888 ) ;
#86 = EDGE_LOOP ( 'NONE', ( #66, #113 ) ) ;
#87 = CARTESIAN_POINT ( 'NONE',  ( -3.000000000000000000, 0.000000000000000000, 0.000000000000000000 ) ) ;
#88 = VECTOR ( 'NONE', #10, 1000.000000000000000 ) ;
#89 = EDGE_CURVE ( 'NONE', #81, #149, #45, .T. ) ;
#90 = AXIS2_PLACEMENT_3D ( 'NONE', #114, #295, #106 ) ;
#91 = AXIS2_PLACEMENT_3D ( 'NONE', #248, #321, #104 ) ;
#92 = CARTESIAN_POINT ( 'NONE',  ( -1.614212418857619014, 0.000000000000000000, 0.000000000000000000 ) ) ;
#93 = DIRECTION ( 'NONE',  ( 1.000000000000000000, 0.000000000000000000, 0.000000000000000000 ) ) ;
#94 = APPLICATION_CONTEXT ( 'configuration controlled 3d designs of mechanical parts and assemblies' ) ;
#95 = VECTOR ( 'NONE', #190, 1000.000000000000000 ) ;
#96 = PERSON_AND_ORGANIZATION ( #75, #142 ) ;
#97 = DIRECTION ( 'NONE',  ( 0.000000000000000000, 0.000000000000000000, -1.000000000000000000 ) ) ;
#98 = CALENDAR_DATE ( 2020, 23, 12 ) ;
#99 = EDGE_LOOP ( 'NONE', ( #4, #323, #287, #48 ) ) ;
#100 = APPROVAL_ROLE ( '' ) ;
#101 = AXIS2_PLACEMENT_3D ( 'NONE', #226, #305, #280 ) ;
#102 = DIRECTION ( 'NONE',  ( -1.000000000000000000, -0.000000000000000000, -0.000000000000000000 ) ) ;
#103 = EDGE_LOOP ( 'NONE', ( #206, #34, #9, #284 ) ) ;
#104 = DIRECTION ( 'NONE',  ( 1.000000000000000000, 0.000000000000000000, 0.000000000000000000 ) ) ;
#105 = EDGE_CURVE ( 'NONE', #188, #268, #301, .T. ) ;
#106 = DIRECTION ( 'NONE',  ( 0.000000000000000000, 0.000000000000000000, 1.000000000000000000 ) ) ;
#107 = EDGE_LOOP ( 'NONE', ( #55, #310 ) ) ;
#108 = APPROVAL_DATE_TIME ( #51, #200 ) ;
#109 = CARTESIAN_POINT ( 'NONE',  ( -1.250000000000000222, 6.123233995736767268E-16, -5.000000000000000888 ) ) ;
#110 = EDGE_CURVE ( 'NONE', #214, #325, #177, .T. ) ;
#111 = CARTESIAN_POINT ( 'NONE',  ( 3.000000000000000000, 12.69999999999999929, 0.000000000000000000 ) ) ;
#112 = CARTESIAN_POINT ( 'NONE',  ( 3.000000000000000000, 0.000000000000000000, 0.000000000000000000 ) ) ;
#113 = ORIENTED_EDGE ( 'NONE', *, *, #84, .T. ) ;
#114 = CARTESIAN_POINT ( 'NONE',  ( 1.250000000000000444, 0.000000000000000000, 0.000000000000000000 ) ) ;
#115 = CIRCLE ( 'NONE', #225, 12.69999999999999929 ) ;
#116 = CC_DESIGN_APPROVAL ( #168, ( #165 ) ) ;
#117 = APPLICATION_CONTEXT ( 'configuration controlled 3d designs of mechanical parts and assemblies' ) ;
#118 = AXIS2_PLACEMENT_3D ( 'NONE', #112, #36, #21 ) ;
#119 = LOCAL_TIME ( 9, 22, 36.00000000000000000, #28 ) ;
#120 = CARTESIAN_POINT ( 'NONE',  ( 3.000000000000000000, 0.000000000000000000, 0.000000000000000000 ) ) ;
#121 = CYLINDRICAL_SURFACE ( 'NONE', #297, 5.000000000000000888 ) ;
#122 = EDGE_CURVE ( 'NONE', #81, #155, #195, .T. ) ;
#123 = FACE_OUTER_BOUND ( 'NONE', #22, .T. ) ;
#124 = ORIENTED_EDGE ( 'NONE', *, *, #245, .T. ) ;
#125 = AXIS2_PLACEMENT_3D ( 'NONE', #186, #318, #285 ) ;
#126 = PERSON_AND_ORGANIZATION ( #75, #142 ) ;
#127 = PERSON_AND_ORGANIZATION_ROLE ( 'classification_officer' ) ;
#128 = DIRECTION ( 'NONE',  ( -1.000000000000000000, -0.000000000000000000, -0.000000000000000000 ) ) ;
#129 = ORIENTED_EDGE ( 'NONE', *, *, #296, .F. ) ;
#130 = CARTESIAN_POINT ( 'NONE',  ( -1.614212418857619014, 0.000000000000000000, 12.69999999999999929 ) ) ;
#131 = CARTESIAN_POINT ( 'NONE',  ( -1.614212418857619014, 0.000000000000000000, 0.000000000000000000 ) ) ;
#132 = CLOSED_SHELL ( 'NONE', ( #202, #332, #41, #38, #26, #198, #326, #327, #299, #242 ) ) ;
#133 = DIRECTION ( 'NONE',  ( -1.000000000000000000, -0.000000000000000000, -0.000000000000000000 ) ) ;
#134 = EDGE_LOOP ( 'NONE', ( #238, #333, #234, #138 ) ) ;
#135 = PLANE ( 'NONE',  #272 ) ;
#136 = APPROVAL_PERSON_ORGANIZATION ( #207, #216, #153 ) ;
#137 = FACE_OUTER_BOUND ( 'NONE', #103, .T. ) ;
#138 = ORIENTED_EDGE ( 'NONE', *, *, #245, .F. ) ;
#139 = APPROVAL_STATUS ( 'not_yet_approved' ) ;
#140 = VERTEX_POINT ( 'NONE', #314 ) ;
#141 = ORIENTED_EDGE ( 'NONE', *, *, #253, .F. ) ;
#142 = ORGANIZATION ( 'UNSPECIFIED', 'UNSPECIFIED', '' ) ;
#143 = EDGE_CURVE ( 'NONE', #159, #320, #151, .T. ) ;
#144 = CIRCLE ( 'NONE', #72, 5.000000000000000000 ) ;
#145 = APPROVAL_PERSON_ORGANIZATION ( #126, #168, #100 ) ;
#146 = EDGE_CURVE ( 'NONE', #325, #268, #80, .T. ) ;
#147 = AXIS2_PLACEMENT_3D ( 'NONE', #64, #40, #46 ) ;
#148 = CARTESIAN_POINT ( 'NONE',  ( 1.250000000000000444, 0.000000000000000000, 5.000000000000000000 ) ) ;
#149 = VERTEX_POINT ( 'NONE', #24 ) ;
#150 = DIRECTION ( 'NONE',  ( -1.000000000000000000, -0.000000000000000000, -0.000000000000000000 ) ) ;
#151 = CIRCLE ( 'NONE', #16, 5.000000000000000000 ) ;
#152 = PLANE ( 'NONE',  #236 ) ;
#153 = APPROVAL_ROLE ( '' ) ;
#154 = DIRECTION ( 'NONE',  ( 0.000000000000000000, 0.000000000000000000, 1.000000000000000000 ) ) ;
#155 = VERTEX_POINT ( 'NONE', #178 ) ;
#156 = DATE_AND_TIME ( #5, #6 ) ;
#157 = CARTESIAN_POINT ( 'NONE',  ( -3.000000000000000000, 5.000000000000000000, 0.000000000000000000 ) ) ;
#158 = CARTESIAN_POINT ( 'NONE',  ( -3.000000000000000000, 0.000000000000000000, 0.000000000000000000 ) ) ;
#159 = VERTEX_POINT ( 'NONE', #17 ) ;
#160 = APPROVAL_DATE_TIME ( #180, #168 ) ;
#161 = DIRECTION ( 'NONE',  ( 1.000000000000000000, 0.000000000000000000, 0.000000000000000000 ) ) ;
#162 = DIRECTION ( 'NONE',  ( -1.000000000000000000, 0.000000000000000000, -0.000000000000000000 ) ) ;
#163 = EDGE_LOOP ( 'NONE', ( #219, #166, #124, #74 ) ) ;
#164 = COORDINATED_UNIVERSAL_TIME_OFFSET ( 8, 0, .AHEAD. ) ;
#165 = SECURITY_CLASSIFICATION ( '', '', #56 ) ;
#166 = ORIENTED_EDGE ( 'NONE', *, *, #172, .T. ) ;
#167 = DIRECTION ( 'NONE',  ( -1.000000000000000000, -0.000000000000000000, -0.000000000000000000 ) ) ;
#168 = APPROVAL ( #307, 'UNSPECIFIED' ) ;
#169 = VECTOR ( 'NONE', #49, 1000.000000000000000 ) ;
#170 = DESIGN_CONTEXT ( 'detailed design', #117, 'design' ) ;
#171 = APPROVAL_PERSON_ORGANIZATION ( #215, #200, #278 ) ;
#172 = EDGE_CURVE ( 'NONE', #291, #262, #244, .T. ) ;
#173 = AXIS2_PLACEMENT_3D ( 'NONE', #131, #68, #276 ) ;
#174 = EDGE_CURVE ( 'NONE', #325, #214, #329, .T. ) ;
#175 = CC_DESIGN_PERSON_AND_ORGANIZATION_ASSIGNMENT ( #96, #2, ( #256 ) ) ;
#176 = FACE_OUTER_BOUND ( 'NONE', #163, .T. ) ;
#177 = CIRCLE ( 'NONE', #118, 5.000000000000001776 ) ;
#178 = CARTESIAN_POINT ( 'NONE',  ( -3.000000000000000000, 1.555301434917138433E-15, -12.69999999999999929 ) ) ;
#179 = EDGE_LOOP ( 'NONE', ( #58, #265 ) ) ;
#180 = DATE_AND_TIME ( #67, #60 ) ;
#181 = DIRECTION ( 'NONE',  ( -1.000000000000000000, -0.000000000000000000, -0.000000000000000000 ) ) ;
#182 = DIRECTION ( 'NONE',  ( -1.000000000000000000, -0.000000000000000000, -0.000000000000000000 ) ) ;
#183 = APPROVAL_DATE_TIME ( #156, #216 ) ;
#184 = CIRCLE ( 'NONE', #147, 5.000000000000000000 ) ;
#185 = EDGE_LOOP ( 'NONE', ( #292, #241, #306, #294 ) ) ;
#186 = CARTESIAN_POINT ( 'NONE',  ( -3.000000000000000000, 0.000000000000000000, 0.000000000000000000 ) ) ;
#187 = CARTESIAN_POINT ( 'NONE',  ( 3.000000000000000000, 0.000000000000000000, 0.000000000000000000 ) ) ;
#188 = VERTEX_POINT ( 'NONE', #148 ) ;
#189 = PERSON_AND_ORGANIZATION_ROLE ( 'design_supplier' ) ;
#190 = DIRECTION ( 'NONE',  ( -1.000000000000000000, -0.000000000000000000, -0.000000000000000000 ) ) ;
#191 = PLANE ( 'NONE',  #199 ) ;
#192 = ORIENTED_EDGE ( 'NONE', *, *, #35, .T. ) ;
#193 =( NAMED_UNIT ( * ) SI_UNIT ( $, .STERADIAN. ) SOLID_ANGLE_UNIT ( ) );
#194 = MECHANICAL_CONTEXT ( 'NONE', #94, 'mechanical' ) ;
#195 = LINE ( 'NONE', #59, #14 ) ;
#196 = ORIENTED_EDGE ( 'NONE', *, *, #122, .T. ) ;
#197 = PRODUCT_RELATED_PRODUCT_CATEGORY ( 'detail', '', ( #251 ) ) ;
#198 = ADVANCED_FACE ( 'NONE', ( #176 ), #121, .F. ) ;
#199 = AXIS2_PLACEMENT_3D ( 'NONE', #3, #162, #286 ) ;
#200 = APPROVAL ( #32, 'UNSPECIFIED' ) ;
#201 = CYLINDRICAL_SURFACE ( 'NONE', #101, 12.69999999999999929 ) ;
#202 = ADVANCED_FACE ( 'NONE', ( #123 ), #201, .T. ) ;
#203 = CARTESIAN_POINT ( 'NONE',  ( -1.614212418857619014, 0.000000000000000000, 0.000000000000000000 ) ) ;
#204 = EDGE_CURVE ( 'NONE', #262, #291, #250, .T. ) ;
#205 = DIRECTION ( 'NONE',  ( -1.000000000000000000, -0.000000000000000000, -0.000000000000000000 ) ) ;
#206 = ORIENTED_EDGE ( 'NONE', *, *, #146, .F. ) ;
#207 = PERSON_AND_ORGANIZATION ( #75, #142 ) ;
#208 = CYLINDRICAL_SURFACE ( 'NONE', #324, 5.000000000000000888 ) ;
#209 = PERSON_AND_ORGANIZATION ( #75, #142 ) ;
#210 = ORIENTED_EDGE ( 'NONE', *, *, #227, .F. ) ;
#211 = AXIS2_PLACEMENT_3D ( 'NONE', #221, #133, #319 ) ;
#212 = PRODUCT_DEFINITION_SHAPE ( 'NONE', 'NONE',  #256 ) ;
#213 = DIRECTION ( 'NONE',  ( 0.000000000000000000, 0.000000000000000000, 1.000000000000000000 ) ) ;
#214 = VERTEX_POINT ( 'NONE', #303 ) ;
#215 = PERSON_AND_ORGANIZATION ( #75, #142 ) ;
#216 = APPROVAL ( #139, 'UNSPECIFIED' ) ;
#217 = CARTESIAN_POINT ( 'NONE',  ( 1.250000000000000444, 6.123233995736766282E-16, -5.000000000000000000 ) ) ;
#218 = DIRECTION ( 'NONE',  ( -1.000000000000000000, -0.000000000000000000, -0.000000000000000000 ) ) ;
#219 = ORIENTED_EDGE ( 'NONE', *, *, #271, .F. ) ;
#220 = CALENDAR_DATE ( 2020, 23, 12 ) ;
#221 = CARTESIAN_POINT ( 'NONE',  ( -1.614212418857619014, 0.000000000000000000, 0.000000000000000000 ) ) ;
#222 = CC_DESIGN_PERSON_AND_ORGANIZATION_ASSIGNMENT ( #76, #189, ( #270 ) ) ;
#223 = ADVANCED_BREP_SHAPE_REPRESENTATION ( 'Q-QZWP-R4-10-852-M', ( #47, #91 ), #254 ) ;
#224 = CC_DESIGN_PERSON_AND_ORGANIZATION_ASSIGNMENT ( #230, #293, ( #251 ) ) ;
#225 = AXIS2_PLACEMENT_3D ( 'NONE', #87, #33, #13 ) ;
#226 = CARTESIAN_POINT ( 'NONE',  ( -1.614212418857619014, 0.000000000000000000, 0.000000000000000000 ) ) ;
#227 = EDGE_CURVE ( 'NONE', #268, #188, #184, .T. ) ;
#228 = FACE_OUTER_BOUND ( 'NONE', #107, .T. ) ;
#229 =( LENGTH_UNIT ( ) NAMED_UNIT ( * ) SI_UNIT ( .MILLI., .METRE. ) );
#230 = PERSON_AND_ORGANIZATION ( #75, #142 ) ;
#231 = LINE ( 'NONE', #317, #95 ) ;
#232 = COORDINATED_UNIVERSAL_TIME_OFFSET ( 8, 0, .AHEAD. ) ;
#233 = DIRECTION ( 'NONE',  ( -1.000000000000000000, -0.000000000000000000, -0.000000000000000000 ) ) ;
#234 = ORIENTED_EDGE ( 'NONE', *, *, #143, .T. ) ;
#235 = APPLICATION_PROTOCOL_DEFINITION ( 'international standard', 'config_control_design', 1994, #117 ) ;
#236 = AXIS2_PLACEMENT_3D ( 'NONE', #255, #44, #239 ) ;
#237 = FACE_OUTER_BOUND ( 'NONE', #86, .T. ) ;
#238 = ORIENTED_EDGE ( 'NONE', *, *, #204, .T. ) ;
#239 = DIRECTION ( 'NONE',  ( 0.000000000000000000, 0.000000000000000000, -1.000000000000000000 ) ) ;
#240 = CYLINDRICAL_SURFACE ( 'NONE', #70, 5.000000000000000888 ) ;
#241 = ORIENTED_EDGE ( 'NONE', *, *, #89, .T. ) ;
#242 = ADVANCED_FACE ( 'NONE', ( #228 ), #152, .F. ) ;
#243 = CARTESIAN_POINT ( 'NONE',  ( -1.614212418857619014, 0.000000000000000000, 0.000000000000000000 ) ) ;
#244 = CIRCLE ( 'NONE', #328, 5.000000000000000888 ) ;
#245 = EDGE_CURVE ( 'NONE', #262, #320, #263, .T. ) ;
#246 = CC_DESIGN_APPROVAL ( #200, ( #270 ) ) ;
#247 = CC_DESIGN_DATE_AND_TIME_ASSIGNMENT ( #43, #334, ( #165 ) ) ;
#248 = CARTESIAN_POINT ( 'NONE',  ( 0.000000000000000000, 0.000000000000000000, 0.000000000000000000 ) ) ;
#249 = CARTESIAN_POINT ( 'NONE',  ( -1.250000000000000222, 0.000000000000000000, 0.000000000000000000 ) ) ;
#250 = CIRCLE ( 'NONE', #39, 5.000000000000000888 ) ;
#251 = PRODUCT ( 'Q-QZWP-R4-10-852-M', 'Q-QZWP-R4-10-852-M', '', ( #194 ) ) ;
#252 = CARTESIAN_POINT ( 'NONE',  ( -1.250000000000000222, 0.000000000000000000, 5.000000000000000888 ) ) ;
#253 = EDGE_CURVE ( 'NONE', #149, #140, #279, .T. ) ;
#254 =( GEOMETRIC_REPRESENTATION_CONTEXT ( 3 ) GLOBAL_UNCERTAINTY_ASSIGNED_CONTEXT ( ( #15 ) ) GLOBAL_UNIT_ASSIGNED_CONTEXT ( ( #229, #27, #193 ) ) REPRESENTATION_CONTEXT ( 'NONE', 'WORKASPACE' ) );
#255 = CARTESIAN_POINT ( 'NONE',  ( -1.250000000000000222, 5.000000000000000000, 0.000000000000000000 ) ) ;
#256 = PRODUCT_DEFINITION ( 'UNKNOWN', '', #270, #170 ) ;
#257 = FACE_OUTER_BOUND ( 'NONE', #12, .T. ) ;
#258 = ORIENTED_EDGE ( 'NONE', *, *, #89, .F. ) ;
#259 = CARTESIAN_POINT ( 'NONE',  ( -1.614212418857619014, 0.000000000000000000, 5.000000000000000888 ) ) ;
#260 = CYLINDRICAL_SURFACE ( 'NONE', #173, 12.69999999999999929 ) ;
#261 = DIRECTION ( 'NONE',  ( -1.000000000000000000, -0.000000000000000000, -0.000000000000000000 ) ) ;
#262 = VERTEX_POINT ( 'NONE', #252 ) ;
#263 = LINE ( 'NONE', #259, #88 ) ;
#264 = DIRECTION ( 'NONE',  ( 0.000000000000000000, 0.000000000000000000, -1.000000000000000000 ) ) ;
#265 = ORIENTED_EDGE ( 'NONE', *, *, #174, .T. ) ;
#266 = COORDINATED_UNIVERSAL_TIME_OFFSET ( 8, 0, .AHEAD. ) ;
#267 = CARTESIAN_POINT ( 'NONE',  ( 3.000000000000000000, 1.555301434917138433E-15, -12.69999999999999929 ) ) ;
#268 = VERTEX_POINT ( 'NONE', #217 ) ;
#269 = CARTESIAN_POINT ( 'NONE',  ( -1.614212418857619014, 6.123233995736767268E-16, -5.000000000000000888 ) ) ;
#270 = PRODUCT_DEFINITION_FORMATION_WITH_SPECIFIED_SOURCE ( 'ANY', '', #251, .NOT_KNOWN. ) ;
#271 = EDGE_CURVE ( 'NONE', #291, #159, #231, .T. ) ;
#272 = AXIS2_PLACEMENT_3D ( 'NONE', #111, #313, #73 ) ;
#273 = CC_DESIGN_APPROVAL ( #216, ( #256 ) ) ;
#274 = DIRECTION ( 'NONE',  ( 0.000000000000000000, 0.000000000000000000, 1.000000000000000000 ) ) ;
#275 = AXIS2_PLACEMENT_3D ( 'NONE', #322, #102, #11 ) ;
#276 = DIRECTION ( 'NONE',  ( 0.000000000000000000, 0.000000000000000000, 1.000000000000000000 ) ) ;
#277 = CARTESIAN_POINT ( 'NONE',  ( -1.250000000000000222, 0.000000000000000000, 0.000000000000000000 ) ) ;
#278 = APPROVAL_ROLE ( '' ) ;
#279 = LINE ( 'NONE', #130, #302 ) ;
#280 = DIRECTION ( 'NONE',  ( 0.000000000000000000, 0.000000000000000000, 1.000000000000000000 ) ) ;
#281 = AXIS2_PLACEMENT_3D ( 'NONE', #120, #205, #330 ) ;
#282 = DATE_AND_TIME ( #98, #298 ) ;
#283 = DIRECTION ( 'NONE',  ( 0.000000000000000000, 0.000000000000000000, 1.000000000000000000 ) ) ;
#284 = ORIENTED_EDGE ( 'NONE', *, *, #105, .T. ) ;
#285 = DIRECTION ( 'NONE',  ( 0.000000000000000000, 0.000000000000000000, 1.000000000000000000 ) ) ;
#286 = DIRECTION ( 'NONE',  ( -0.000000000000000000, 0.000000000000000000, 1.000000000000000000 ) ) ;
#287 = ORIENTED_EDGE ( 'NONE', *, *, #227, .T. ) ;
#288 = APPLICATION_PROTOCOL_DEFINITION ( 'international standard', 'config_control_design', 1994, #94 ) ;
#289 = FACE_BOUND ( 'NONE', #179, .T. ) ;
#290 = PLANE ( 'NONE',  #304 ) ;
#291 = VERTEX_POINT ( 'NONE', #109 ) ;
#292 = ORIENTED_EDGE ( 'NONE', *, *, #122, .F. ) ;
#293 = PERSON_AND_ORGANIZATION_ROLE ( 'design_owner' ) ;
#294 = ORIENTED_EDGE ( 'NONE', *, *, #84, .F. ) ;
#295 = DIRECTION ( 'NONE',  ( -1.000000000000000000, -0.000000000000000000, -0.000000000000000000 ) ) ;
#296 = EDGE_CURVE ( 'NONE', #320, #159, #144, .T. ) ;
#297 = AXIS2_PLACEMENT_3D ( 'NONE', #92, #182, #274 ) ;
#298 = LOCAL_TIME ( 9, 22, 36.00000000000000000, #20 ) ;
#299 = ADVANCED_FACE ( 'NONE', ( #52, #289 ), #135, .F. ) ;
#300 = EDGE_CURVE ( 'NONE', #140, #155, #335, .T. ) ;
#301 = CIRCLE ( 'NONE', #90, 5.000000000000000000 ) ;
#302 = VECTOR ( 'NONE', #150, 1000.000000000000000 ) ;
#303 = CARTESIAN_POINT ( 'NONE',  ( 3.000000000000000000, 0.000000000000000000, 5.000000000000001776 ) ) ;
#304 = AXIS2_PLACEMENT_3D ( 'NONE', #157, #161, #264 ) ;
#305 = DIRECTION ( 'NONE',  ( -1.000000000000000000, -0.000000000000000000, -0.000000000000000000 ) ) ;
#306 = ORIENTED_EDGE ( 'NONE', *, *, #253, .T. ) ;
#307 = APPROVAL_STATUS ( 'not_yet_approved' ) ;
#308 = CC_DESIGN_DATE_AND_TIME_ASSIGNMENT ( #282, #19, ( #256 ) ) ;
#309 = PERSON_AND_ORGANIZATION_ROLE ( 'creator' ) ;
#310 = ORIENTED_EDGE ( 'NONE', *, *, #172, .F. ) ;
#311 = AXIS2_PLACEMENT_3D ( 'NONE', #187, #233, #213 ) ;
#312 = LOCAL_TIME ( 9, 22, 36.00000000000000000, #164 ) ;
#313 = DIRECTION ( 'NONE',  ( -1.000000000000000000, 0.000000000000000000, -0.000000000000000000 ) ) ;
#314 = CARTESIAN_POINT ( 'NONE',  ( -3.000000000000000000, 0.000000000000000000, 12.69999999999999929 ) ) ;
#315 = ORIENTED_EDGE ( 'NONE', *, *, #35, .F. ) ;
#316 = PERSON_AND_ORGANIZATION ( #75, #142 ) ;
#317 = CARTESIAN_POINT ( 'NONE',  ( -1.614212418857619014, 6.123233995736767268E-16, -5.000000000000000888 ) ) ;
#318 = DIRECTION ( 'NONE',  ( -1.000000000000000000, -0.000000000000000000, -0.000000000000000000 ) ) ;
#319 = DIRECTION ( 'NONE',  ( 0.000000000000000000, 0.000000000000000000, 1.000000000000000000 ) ) ;
#320 = VERTEX_POINT ( 'NONE', #23 ) ;
#321 = DIRECTION ( 'NONE',  ( 0.000000000000000000, 0.000000000000000000, 1.000000000000000000 ) ) ;
#322 = CARTESIAN_POINT ( 'NONE',  ( 3.000000000000000000, 0.000000000000000000, 0.000000000000000000 ) ) ;
#323 = ORIENTED_EDGE ( 'NONE', *, *, #146, .T. ) ;
#324 = AXIS2_PLACEMENT_3D ( 'NONE', #203, #181, #65 ) ;
#325 = VERTEX_POINT ( 'NONE', #79 ) ;
#326 = ADVANCED_FACE ( 'NONE', ( #53, #237 ), #290, .F. ) ;
#327 = ADVANCED_FACE ( 'NONE', ( #7 ), #260, .T. ) ;
#328 = AXIS2_PLACEMENT_3D ( 'NONE', #277, #1, #18 ) ;
#329 = CIRCLE ( 'NONE', #281, 5.000000000000001776 ) ;
#330 = DIRECTION ( 'NONE',  ( 0.000000000000000000, 0.000000000000000000, 1.000000000000000000 ) ) ;
#331 = FACE_OUTER_BOUND ( 'NONE', #134, .T. ) ;
#332 = ADVANCED_FACE ( 'NONE', ( #331 ), #208, .F. ) ;
#333 = ORIENTED_EDGE ( 'NONE', *, *, #271, .T. ) ;
#334 = DATE_TIME_ROLE ( 'classification_date' ) ;
#335 = CIRCLE ( 'NONE', #125, 12.69999999999999929 ) ;
ENDSEC;
END-ISO-10303-21;
